  0
SECTION
  2
HEADER
  9
$ACADVER
  1
AC1009
  9
$ANGDIR
  70
0
  9
$CECOLOR
  62
256
  9
$CELTYPE
  6
BYLAYER
  9
$EXTMIN
  10
0.0
  20
0.0
  9
$EXTMAX
  10
1.6
  20
5.0551
  9
$FILLMODE
  70
1
  9
$MIRRTEXT
  70
0
  0
ENDSEC
  0
SECTION
  2
TABLES
  0
TABLE
  2
LAYER
  70
17
  0
LAYER
  2
Top
  70
64
  62
5
  6
CONTINUOUS
  0
LAYER
  2
Drill_Top
  70
64
  62
7
  6
CONTINUOUS
  0
LAYER
  2
Drill_Bottom
  70
64
  62
8
  6
CONTINUOUS
  0
LAYER
  2
Board_Outline
  70
64
  62
13
  6
CONTINUOUS
  0
ENDTAB
  0
ENDSEC
  0
SECTION
  2
ENTITIES
  0
POLYLINE
  8
Top
  6
CONTINUOUS
  66
1
  70
0
  40
0.065
  41
0.065
  0
VERTEX
  8
Top
  10
0.2746
  20
4.937
  42
1
  0
VERTEX
  8
Top
  10
0.2096
  20
4.937
  42
1
  0
VERTEX
  8
Top
  10
0.2746
  20
4.937
  42
1
  0
SEQEND
  0
POLYLINE
  8
Top
  6
CONTINUOUS
  66
1
  70
0
  40
0.065
  41
0.065
  0
VERTEX
  8
Top
  10
0.377
  20
4.937
  42
1
  0
VERTEX
  8
Top
  10
0.312
  20
4.937
  42
1
  0
VERTEX
  8
Top
  10
0.377
  20
4.937
  42
1
  0
SEQEND
  0
SOLID
  8
Top
  10
0.2421
  20
5.002
  11
0.3445
  21
5.002
  12
0.2421
  22
4.872
  13
0.3445
  23
4.872
  0
POLYLINE
  8
Top
  6
CONTINUOUS
  66
1
  70
0
  40
0.065
  41
0.065
  0
VERTEX
  8
Top
  10
0.2746
  20
0.1181
  42
1
  0
VERTEX
  8
Top
  10
0.2096
  20
0.1181
  42
1
  0
VERTEX
  8
Top
  10
0.2746
  20
0.1181
  42
1
  0
SEQEND
  0
POLYLINE
  8
Top
  6
CONTINUOUS
  66
1
  70
0
  40
0.065
  41
0.065
  0
VERTEX
  8
Top
  10
0.377
  20
0.1181
  42
1
  0
VERTEX
  8
Top
  10
0.312
  20
0.1181
  42
1
  0
VERTEX
  8
Top
  10
0.377
  20
0.1181
  42
1
  0
SEQEND
  0
SOLID
  8
Top
  10
0.2421
  20
0.1831
  11
0.3445
  21
0.1831
  12
0.2421
  22
0.0531
  13
0.3445
  23
0.0531
  0
CIRCLE
  8
Drill_Top
  10
0.4
  20
3.6276
  40
0.1398
  0
CIRCLE
  8
Drill_Top
  10
1.2
  20
3.6276
  40
0.1398
  0
CIRCLE
  8
Drill_Top
  10
1.2
  20
1.4276
  40
0.1398
  0
CIRCLE
  8
Drill_Top
  10
0.8
  20
2.8526
  40
0.1398
  0
CIRCLE
  8
Drill_Top
  10
0.4
  20
1.4276
  40
0.1398
  0
CIRCLE
  8
Drill_Top
  10
0.4
  20
4.2776
  40
0.1201
  0
CIRCLE
  8
Drill_Top
  10
1.2
  20
4.2776
  40
0.1201
  0
CIRCLE
  8
Drill_Top
  10
0.4
  20
0.7776
  40
0.1201
  0
CIRCLE
  8
Drill_Top
  10
1.2
  20
0.7776
  40
0.1201
  0
CIRCLE
  8
Drill_Top
  10
0.3445
  20
4.937
  40
0.065
  0
CIRCLE
  8
Drill_Top
  10
0.2421
  20
4.937
  40
0.065
  0
SOLID
  8
Drill_Top
  10
0.2421
  20
4.872
  11
0.3445
  21
4.872
  12
0.2421
  22
5.002
  13
0.3445
  23
5.002
  0
CIRCLE
  8
Drill_Top
  10
0.3445
  20
0.1181
  40
0.065
  0
CIRCLE
  8
Drill_Top
  10
0.2421
  20
0.1181
  40
0.065
  0
SOLID
  8
Drill_Top
  10
0.2421
  20
0.0531
  11
0.3445
  21
0.0531
  12
0.2421
  22
0.1831
  13
0.3445
  23
0.1831
  0
CIRCLE
  8
Drill_Top
  10
1.2
  20
2.0776
  40
0.1398
  0
CIRCLE
  8
Drill_Top
  10
0.4
  20
2.0776
  40
0.1201
  0
CIRCLE
  8
Drill_Bottom
  10
0.4
  20
3.6276
  40
0.1398
  0
CIRCLE
  8
Drill_Bottom
  10
1.2
  20
3.6276
  40
0.1398
  0
CIRCLE
  8
Drill_Bottom
  10
1.2
  20
1.4276
  40
0.1398
  0
CIRCLE
  8
Drill_Bottom
  10
0.8
  20
2.8526
  40
0.1398
  0
CIRCLE
  8
Drill_Bottom
  10
0.4
  20
1.4276
  40
0.1398
  0
CIRCLE
  8
Drill_Bottom
  10
0.4
  20
4.2776
  40
0.1201
  0
CIRCLE
  8
Drill_Bottom
  10
1.2
  20
4.2776
  40
0.1201
  0
CIRCLE
  8
Drill_Bottom
  10
0.4
  20
0.7776
  40
0.1201
  0
CIRCLE
  8
Drill_Bottom
  10
1.2
  20
0.7776
  40
0.1201
  0
CIRCLE
  8
Drill_Bottom
  10
0.3445
  20
4.937
  40
0.065
  0
CIRCLE
  8
Drill_Bottom
  10
0.2421
  20
4.937
  40
0.065
  0
SOLID
  8
Drill_Bottom
  10
0.2421
  20
4.872
  11
0.3445
  21
4.872
  12
0.2421
  22
5.002
  13
0.3445
  23
5.002
  0
CIRCLE
  8
Drill_Bottom
  10
0.3445
  20
0.1181
  40
0.065
  0
CIRCLE
  8
Drill_Bottom
  10
0.2421
  20
0.1181
  40
0.065
  0
SOLID
  8
Drill_Bottom
  10
0.2421
  20
0.0531
  11
0.3445
  21
0.0531
  12
0.2421
  22
0.1831
  13
0.3445
  23
0.1831
  0
CIRCLE
  8
Drill_Bottom
  10
1.2
  20
2.0776
  40
0.1398
  0
CIRCLE
  8
Drill_Bottom
  10
0.4
  20
2.0776
  40
0.1201
  0
POLYLINE
  8
Board_Outline
  6
CONTINUOUS
  66
1
  70
0
  40
0.01
  41
0.01
  0
VERTEX
  8
Board_Outline
  10
1.6
  20
5.0551
  42
0
  0
VERTEX
  8
Board_Outline
  10
1.6
  20
0.0
  42
0
  0
VERTEX
  8
Board_Outline
  10
0.0
  20
0.0
  42
0
  0
VERTEX
  8
Board_Outline
  10
0.0
  20
5.0551
  42
0
  0
VERTEX
  8
Board_Outline
  10
1.6
  20
5.0551
  42
0
  0
SEQEND
  0
ENDSEC
  0
EOF
