  0
SECTION
  2
HEADER
  9
$ACADVER
  1
AC1009
  9
$ANGDIR
  70
0
  9
$CECOLOR
  62
256
  9
$CELTYPE
  6
BYLAYER
  9
$EXTMIN
  10
0.0
  20
0.0
  9
$EXTMAX
  10
2.116
  20
8.75
  9
$FILLMODE
  70
1
  9
$MIRRTEXT
  70
0
  0
ENDSEC
  0
SECTION
  2
TABLES
  0
TABLE
  2
LAYER
  70
17
  0
LAYER
  2
Drill_Top
  70
64
  62
7
  6
CONTINUOUS
  0
LAYER
  2
Drill_Bottom
  70
64
  62
8
  6
CONTINUOUS
  0
LAYER
  2
Board_Outline
  70
64
  62
13
  6
CONTINUOUS
  0
ENDTAB
  0
ENDSEC
  0
SECTION
  2
ENTITIES
  0
CIRCLE
  8
Drill_Top
  10
0.458
  20
8.0625
  40
0.0984
  0
CIRCLE
  8
Drill_Top
  10
1.058
  20
7.4125
  40
0.1378
  0
CIRCLE
  8
Drill_Top
  10
1.058
  20
6.1625
  40
0.1378
  0
CIRCLE
  8
Drill_Top
  10
1.058
  20
4.9125
  40
0.1378
  0
CIRCLE
  8
Drill_Top
  10
1.058
  20
3.6625
  40
0.1378
  0
CIRCLE
  8
Drill_Top
  10
0.552
  20
2.1371
  40
0.1969
  0
CIRCLE
  8
Drill_Top
  10
0.552
  20
1.0751
  40
0.1969
  0
CIRCLE
  8
Drill_Top
  10
1.564
  20
1.0751
  40
0.1969
  0
CIRCLE
  8
Drill_Top
  10
1.564
  20
2.1361
  40
0.1181
  0
CIRCLE
  8
Drill_Bottom
  10
0.458
  20
8.0625
  40
0.0984
  0
CIRCLE
  8
Drill_Bottom
  10
1.058
  20
7.4125
  40
0.1378
  0
CIRCLE
  8
Drill_Bottom
  10
1.058
  20
6.1625
  40
0.1378
  0
CIRCLE
  8
Drill_Bottom
  10
1.058
  20
4.9125
  40
0.1378
  0
CIRCLE
  8
Drill_Bottom
  10
1.058
  20
3.6625
  40
0.1378
  0
CIRCLE
  8
Drill_Bottom
  10
0.552
  20
2.1371
  40
0.1969
  0
CIRCLE
  8
Drill_Bottom
  10
0.552
  20
1.0751
  40
0.1969
  0
CIRCLE
  8
Drill_Bottom
  10
1.564
  20
1.0751
  40
0.1969
  0
CIRCLE
  8
Drill_Bottom
  10
1.564
  20
2.1361
  40
0.1181
  0
POLYLINE
  8
Board_Outline
  6
CONTINUOUS
  66
1
  70
0
  40
0.01
  41
0.01
  0
VERTEX
  8
Board_Outline
  10
0.0005
  20
8.75
  42
0
  0
VERTEX
  8
Board_Outline
  10
2.1155
  20
8.75
  42
0
  0
VERTEX
  8
Board_Outline
  10
2.116
  20
0.0
  42
0
  0
VERTEX
  8
Board_Outline
  10
0.0
  20
0.0
  42
0
  0
VERTEX
  8
Board_Outline
  10
0.0005
  20
8.75
  42
0
  0
SEQEND
  0
ENDSEC
  0
EOF
