  0
SECTION
  2
HEADER
  9
$ACADVER
  1
AC1009
  9
$ANGDIR
  70
0
  9
$CECOLOR
  62
256
  9
$CELTYPE
  6
BYLAYER
  9
$EXTMIN
  10
0.0
  20
0.0
  9
$EXTMAX
  10
4.4882
  20
3.4646
  9
$FILLMODE
  70
1
  9
$MIRRTEXT
  70
0
  0
ENDSEC
  0
SECTION
  2
TABLES
  0
TABLE
  2
LAYER
  70
17
  0
LAYER
  2
Drill_Top
  70
64
  62
7
  6
CONTINUOUS
  0
LAYER
  2
Board_Outline
  70
64
  62
13
  6
CONTINUOUS
  0
ENDTAB
  0
ENDSEC
  0
SECTION
  2
ENTITIES
  0
CIRCLE
  8
Drill_Top
  10
0.7441
  20
0.3823
  40
0.2579
  0
CIRCLE
  8
Drill_Top
  10
3.7441
  20
0.3823
  40
0.2579
  0
CIRCLE
  8
Drill_Top
  10
2.2441
  20
3.0323
  40
0.1398
  0
CIRCLE
  8
Drill_Top
  10
0.5441
  20
1.5885
  40
0.0984
  0
CIRCLE
  8
Drill_Top
  10
3.9441
  20
1.5885
  40
0.0984
  0
CIRCLE
  8
Drill_Top
  10
3.9441
  20
3.0323
  40
0.1575
  0
CIRCLE
  8
Drill_Top
  10
3.0941
  20
3.0323
  40
0.1575
  0
CIRCLE
  8
Drill_Top
  10
1.3941
  20
3.0323
  40
0.1575
  0
CIRCLE
  8
Drill_Top
  10
0.5441
  20
3.0323
  40
0.1575
  0
POLYLINE
  8
Board_Outline
  6
CONTINUOUS
  66
1
  70
0
  40
0.01
  41
0.01
  0
VERTEX
  8
Board_Outline
  10
4.2913
  20
3.4646
  42
0
  0
VERTEX
  8
Board_Outline
  10
4.3287
  20
3.4584
  42
0
  0
VERTEX
  8
Board_Outline
  10
4.3643
  20
3.4457
  42
0
  0
VERTEX
  8
Board_Outline
  10
4.3972
  20
3.4269
  42
0
  0
VERTEX
  8
Board_Outline
  10
4.4262
  20
3.4026
  42
0
  0
VERTEX
  8
Board_Outline
  10
4.4505
  20
3.3736
  42
0
  0
VERTEX
  8
Board_Outline
  10
4.4693
  20
3.3407
  42
0
  0
VERTEX
  8
Board_Outline
  10
4.482
  20
3.3051
  42
0
  0
VERTEX
  8
Board_Outline
  10
4.4882
  20
3.2677
  42
0
  0
VERTEX
  8
Board_Outline
  10
4.4882
  20
0.1969
  42
0
  0
VERTEX
  8
Board_Outline
  10
4.482
  20
0.1595
  42
0
  0
VERTEX
  8
Board_Outline
  10
4.4693
  20
0.1239
  42
0
  0
VERTEX
  8
Board_Outline
  10
4.4505
  20
0.091
  42
0
  0
VERTEX
  8
Board_Outline
  10
4.4262
  20
0.062
  42
0
  0
VERTEX
  8
Board_Outline
  10
4.3972
  20
0.0377
  42
0
  0
VERTEX
  8
Board_Outline
  10
4.3643
  20
0.0189
  42
0
  0
VERTEX
  8
Board_Outline
  10
4.3287
  20
0.0062
  42
0
  0
VERTEX
  8
Board_Outline
  10
4.2913
  20
0.0
  42
0
  0
VERTEX
  8
Board_Outline
  10
0.1969
  20
0.0
  42
0
  0
VERTEX
  8
Board_Outline
  10
0.1595
  20
0.0062
  42
0
  0
VERTEX
  8
Board_Outline
  10
0.1239
  20
0.0189
  42
0
  0
VERTEX
  8
Board_Outline
  10
0.091
  20
0.0377
  42
0
  0
VERTEX
  8
Board_Outline
  10
0.062
  20
0.062
  42
0
  0
VERTEX
  8
Board_Outline
  10
0.0377
  20
0.091
  42
0
  0
VERTEX
  8
Board_Outline
  10
0.0189
  20
0.1239
  42
0
  0
VERTEX
  8
Board_Outline
  10
0.0062
  20
0.1595
  42
0
  0
VERTEX
  8
Board_Outline
  10
0.0
  20
0.1968
  42
0
  0
VERTEX
  8
Board_Outline
  10
0.0
  20
3.2677
  42
0
  0
VERTEX
  8
Board_Outline
  10
0.005
  20
3.3056
  42
0
  0
VERTEX
  8
Board_Outline
  10
0.017
  20
3.3419
  42
0
  0
VERTEX
  8
Board_Outline
  10
0.0355
  20
3.3753
  42
0
  0
VERTEX
  8
Board_Outline
  10
0.0599
  20
3.4047
  42
0
  0
VERTEX
  8
Board_Outline
  10
0.0893
  20
3.4291
  42
0
  0
VERTEX
  8
Board_Outline
  10
0.1227
  20
3.4476
  42
0
  0
VERTEX
  8
Board_Outline
  10
0.159
  20
3.4595
  42
0
  0
VERTEX
  8
Board_Outline
  10
0.1969
  20
3.4646
  42
0
  0
VERTEX
  8
Board_Outline
  10
4.2913
  20
3.4646
  42
0
  0
SEQEND
  0
ENDSEC
  0
EOF
