  0
SECTION
  2
HEADER
  9
$ACADVER
  1
AC1009
  9
$ANGDIR
  70
0
  9
$CECOLOR
  62
256
  9
$CELTYPE
  6
BYLAYER
  9
$EXTMIN
  10
0.0
  20
0.0
  9
$EXTMAX
  10
1.9843
  20
5.0551
  9
$FILLMODE
  70
1
  9
$MIRRTEXT
  70
0
  0
ENDSEC
  0
SECTION
  2
TABLES
  0
TABLE
  2
LAYER
  70
17
  0
LAYER
  2
Drill_Top
  70
64
  62
7
  6
CONTINUOUS
  0
LAYER
  2
Drill_Bottom
  70
64
  62
8
  6
CONTINUOUS
  0
LAYER
  2
Board_Outline
  70
64
  62
13
  6
CONTINUOUS
  0
ENDTAB
  0
ENDSEC
  0
SECTION
  2
ENTITIES
  0
CIRCLE
  8
Drill_Top
  10
0.7421
  20
0.7776
  40
0.1201
  0
CIRCLE
  8
Drill_Top
  10
1.2421
  20
0.7776
  40
0.1201
  0
CIRCLE
  8
Drill_Top
  10
1.7421
  20
0.7776
  40
0.1201
  0
CIRCLE
  8
Drill_Top
  10
1.7421
  20
1.5776
  40
0.1201
  0
CIRCLE
  8
Drill_Top
  10
0.2421
  20
1.5776
  40
0.1201
  0
CIRCLE
  8
Drill_Top
  10
0.9921
  20
1.5776
  40
0.1201
  0
CIRCLE
  8
Drill_Top
  10
1.7421
  20
1.1776
  40
0.061
  0
CIRCLE
  8
Drill_Top
  10
1.2421
  20
1.1776
  40
0.061
  0
CIRCLE
  8
Drill_Top
  10
0.7421
  20
1.1776
  40
0.061
  0
CIRCLE
  8
Drill_Top
  10
0.2421
  20
1.1776
  40
0.061
  0
CIRCLE
  8
Drill_Top
  10
1.7421
  20
3.5776
  40
0.061
  0
CIRCLE
  8
Drill_Top
  10
0.9921
  20
3.5776
  40
0.061
  0
CIRCLE
  8
Drill_Top
  10
0.2421
  20
3.5776
  40
0.061
  0
CIRCLE
  8
Drill_Top
  10
1.7421
  20
4.1776
  40
0.1201
  0
CIRCLE
  8
Drill_Top
  10
0.2421
  20
0.7776
  40
0.1201
  0
CIRCLE
  8
Drill_Top
  10
0.2421
  20
4.1776
  40
0.1201
  0
CIRCLE
  8
Drill_Top
  10
0.4171
  20
2.3776
  40
0.1398
  0
CIRCLE
  8
Drill_Top
  10
1.5671
  20
2.3776
  40
0.1398
  0
CIRCLE
  8
Drill_Top
  10
0.2421
  20
3.1776
  40
0.1398
  0
CIRCLE
  8
Drill_Top
  10
1.7421
  20
3.1776
  40
0.1398
  0
CIRCLE
  8
Drill_Top
  10
0.9921
  20
3.1776
  40
0.1398
  0
CIRCLE
  8
Drill_Top
  10
0.3366
  20
0.1181
  40
0.065
  0
CIRCLE
  8
Drill_Top
  10
0.2343
  20
0.1181
  40
0.065
  0
SOLID
  8
Drill_Top
  10
0.2343
  20
0.0531
  11
0.3366
  21
0.0531
  12
0.2343
  22
0.1831
  13
0.3366
  23
0.1831
  0
CIRCLE
  8
Drill_Top
  10
0.3366
  20
4.937
  40
0.065
  0
CIRCLE
  8
Drill_Top
  10
0.2343
  20
4.937
  40
0.065
  0
SOLID
  8
Drill_Top
  10
0.2343
  20
4.872
  11
0.3366
  21
4.872
  12
0.2343
  22
5.002
  13
0.3366
  23
5.002
  0
CIRCLE
  8
Drill_Top
  10
1.75
  20
0.1181
  40
0.065
  0
CIRCLE
  8
Drill_Top
  10
1.6476
  20
0.1181
  40
0.065
  0
SOLID
  8
Drill_Top
  10
1.6476
  20
0.0531
  11
1.75
  21
0.0531
  12
1.6476
  22
0.1831
  13
1.75
  23
0.1831
  0
CIRCLE
  8
Drill_Top
  10
1.75
  20
4.937
  40
0.065
  0
CIRCLE
  8
Drill_Top
  10
1.6476
  20
4.937
  40
0.065
  0
SOLID
  8
Drill_Top
  10
1.6476
  20
4.872
  11
1.75
  21
4.872
  12
1.6476
  22
5.002
  13
1.75
  23
5.002
  0
CIRCLE
  8
Drill_Bottom
  10
0.7421
  20
0.7776
  40
0.1201
  0
CIRCLE
  8
Drill_Bottom
  10
1.2421
  20
0.7776
  40
0.1201
  0
CIRCLE
  8
Drill_Bottom
  10
1.7421
  20
0.7776
  40
0.1201
  0
CIRCLE
  8
Drill_Bottom
  10
1.7421
  20
1.5776
  40
0.1201
  0
CIRCLE
  8
Drill_Bottom
  10
0.2421
  20
1.5776
  40
0.1201
  0
CIRCLE
  8
Drill_Bottom
  10
0.9921
  20
1.5776
  40
0.1201
  0
CIRCLE
  8
Drill_Bottom
  10
1.7421
  20
1.1776
  40
0.061
  0
CIRCLE
  8
Drill_Bottom
  10
1.2421
  20
1.1776
  40
0.061
  0
CIRCLE
  8
Drill_Bottom
  10
0.7421
  20
1.1776
  40
0.061
  0
CIRCLE
  8
Drill_Bottom
  10
0.2421
  20
1.1776
  40
0.061
  0
CIRCLE
  8
Drill_Bottom
  10
1.7421
  20
3.5776
  40
0.061
  0
CIRCLE
  8
Drill_Bottom
  10
0.9921
  20
3.5776
  40
0.061
  0
CIRCLE
  8
Drill_Bottom
  10
0.2421
  20
3.5776
  40
0.061
  0
CIRCLE
  8
Drill_Bottom
  10
1.7421
  20
4.1776
  40
0.1201
  0
CIRCLE
  8
Drill_Bottom
  10
0.2421
  20
0.7776
  40
0.1201
  0
CIRCLE
  8
Drill_Bottom
  10
0.2421
  20
4.1776
  40
0.1201
  0
CIRCLE
  8
Drill_Bottom
  10
0.4171
  20
2.3776
  40
0.1398
  0
CIRCLE
  8
Drill_Bottom
  10
1.5671
  20
2.3776
  40
0.1398
  0
CIRCLE
  8
Drill_Bottom
  10
0.2421
  20
3.1776
  40
0.1398
  0
CIRCLE
  8
Drill_Bottom
  10
1.7421
  20
3.1776
  40
0.1398
  0
CIRCLE
  8
Drill_Bottom
  10
0.9921
  20
3.1776
  40
0.1398
  0
CIRCLE
  8
Drill_Bottom
  10
0.3366
  20
0.1181
  40
0.065
  0
CIRCLE
  8
Drill_Bottom
  10
0.2343
  20
0.1181
  40
0.065
  0
SOLID
  8
Drill_Bottom
  10
0.2343
  20
0.0531
  11
0.3366
  21
0.0531
  12
0.2343
  22
0.1831
  13
0.3366
  23
0.1831
  0
CIRCLE
  8
Drill_Bottom
  10
0.3366
  20
4.937
  40
0.065
  0
CIRCLE
  8
Drill_Bottom
  10
0.2343
  20
4.937
  40
0.065
  0
SOLID
  8
Drill_Bottom
  10
0.2343
  20
4.872
  11
0.3366
  21
4.872
  12
0.2343
  22
5.002
  13
0.3366
  23
5.002
  0
CIRCLE
  8
Drill_Bottom
  10
1.75
  20
0.1181
  40
0.065
  0
CIRCLE
  8
Drill_Bottom
  10
1.6476
  20
0.1181
  40
0.065
  0
SOLID
  8
Drill_Bottom
  10
1.6476
  20
0.0531
  11
1.75
  21
0.0531
  12
1.6476
  22
0.1831
  13
1.75
  23
0.1831
  0
CIRCLE
  8
Drill_Bottom
  10
1.75
  20
4.937
  40
0.065
  0
CIRCLE
  8
Drill_Bottom
  10
1.6476
  20
4.937
  40
0.065
  0
SOLID
  8
Drill_Bottom
  10
1.6476
  20
4.872
  11
1.75
  21
4.872
  12
1.6476
  22
5.002
  13
1.75
  23
5.002
  0
POLYLINE
  8
Board_Outline
  6
CONTINUOUS
  66
1
  70
0
  40
0.01
  41
0.01
  0
VERTEX
  8
Board_Outline
  10
0.5421
  20
4.5276
  42
0
  0
VERTEX
  8
Board_Outline
  10
1.4421
  20
4.5276
  42
0
  0
VERTEX
  8
Board_Outline
  10
1.4421
  20
3.8276
  42
0
  0
VERTEX
  8
Board_Outline
  10
0.5421
  20
3.8276
  42
0
  0
VERTEX
  8
Board_Outline
  10
0.5421
  20
4.5276
  42
0
  0
SEQEND
  0
POLYLINE
  8
Board_Outline
  6
CONTINUOUS
  66
1
  70
0
  40
0.01
  41
0.01
  0
VERTEX
  8
Board_Outline
  10
1.9843
  20
5.0551
  42
0
  0
VERTEX
  8
Board_Outline
  10
1.9843
  20
0.0
  42
0
  0
VERTEX
  8
Board_Outline
  10
0.0
  20
0.0
  42
0
  0
VERTEX
  8
Board_Outline
  10
0.0
  20
5.0551
  42
0
  0
VERTEX
  8
Board_Outline
  10
1.9843
  20
5.0551
  42
0
  0
SEQEND
  0
POLYLINE
  8
Board_Outline
  6
CONTINUOUS
  66
1
  70
0
  40
0.0118
  41
0.0118
  0
VERTEX
  8
Board_Outline
  10
0.5421
  20
4.5276
  42
0
  0
VERTEX
  8
Board_Outline
  10
1.4421
  20
4.5276
  42
0
  0
VERTEX
  8
Board_Outline
  10
1.4421
  20
3.8276
  42
0
  0
VERTEX
  8
Board_Outline
  10
0.5421
  20
3.8276
  42
0
  0
VERTEX
  8
Board_Outline
  10
0.5421
  20
4.5276
  42
0
  0
SEQEND
  0
ENDSEC
  0
EOF
