  0
SECTION
  2
HEADER
  9
$ACADVER
  1
AC1009
  9
$ANGDIR
  70
0
  9
$CECOLOR
  62
256
  9
$CELTYPE
  6
BYLAYER
  9
$EXTMIN
  10
0.0
  20
0.0
  9
$EXTMAX
  10
0.4
  20
5.0551
  9
$FILLMODE
  70
1
  9
$MIRRTEXT
  70
0
  0
ENDSEC
  0
SECTION
  2
TABLES
  0
TABLE
  2
LAYER
  70
17
  0
LAYER
  2
Top
  70
64
  62
5
  6
CONTINUOUS
  0
LAYER
  2
Drill_Top
  70
64
  62
7
  6
CONTINUOUS
  0
LAYER
  2
Board_Outline
  70
64
  62
13
  6
CONTINUOUS
  0
LAYER
  2
Top_Dimension
  70
64
  62
14
  6
CONTINUOUS
  0
ENDTAB
  0
ENDSEC
  0
SECTION
  2
ENTITIES
  0
POLYLINE
  8
Top
  6
CONTINUOUS
  66
1
  70
0
  40
0.065
  41
0.065
  0
VERTEX
  8
Top
  10
0.1313
  20
0.1151
  42
1
  0
VERTEX
  8
Top
  10
0.0663
  20
0.1151
  42
1
  0
VERTEX
  8
Top
  10
0.1313
  20
0.1151
  42
1
  0
SEQEND
  0
POLYLINE
  8
Top
  6
CONTINUOUS
  66
1
  70
0
  40
0.065
  41
0.065
  0
VERTEX
  8
Top
  10
0.2337
  20
0.1151
  42
1
  0
VERTEX
  8
Top
  10
0.1687
  20
0.1151
  42
1
  0
VERTEX
  8
Top
  10
0.2337
  20
0.1151
  42
1
  0
SEQEND
  0
SOLID
  8
Top
  10
0.0988
  20
0.18
  11
0.2012
  21
0.18
  12
0.0988
  22
0.0501
  13
0.2012
  23
0.0501
  0
POLYLINE
  8
Top
  6
CONTINUOUS
  66
1
  70
0
  40
0.065
  41
0.065
  0
VERTEX
  8
Top
  10
0.1313
  20
4.9526
  42
1
  0
VERTEX
  8
Top
  10
0.0663
  20
4.9526
  42
1
  0
VERTEX
  8
Top
  10
0.1313
  20
4.9526
  42
1
  0
SEQEND
  0
POLYLINE
  8
Top
  6
CONTINUOUS
  66
1
  70
0
  40
0.065
  41
0.065
  0
VERTEX
  8
Top
  10
0.2337
  20
4.9526
  42
1
  0
VERTEX
  8
Top
  10
0.1687
  20
4.9526
  42
1
  0
VERTEX
  8
Top
  10
0.2337
  20
4.9526
  42
1
  0
SEQEND
  0
SOLID
  8
Top
  10
0.0988
  20
5.0175
  11
0.2012
  21
5.0175
  12
0.0988
  22
4.8876
  13
0.2012
  23
4.8876
  0
CIRCLE
  8
Drill_Top
  10
0.2
  20
1.6776
  40
0.1201
  0
CIRCLE
  8
Drill_Top
  10
0.2
  20
2.2276
  40
0.1201
  0
CIRCLE
  8
Drill_Top
  10
0.2
  20
1.1276
  40
0.1201
  0
CIRCLE
  8
Drill_Top
  10
0.2
  20
0.5776
  40
0.1201
  0
CIRCLE
  8
Drill_Top
  10
0.2
  20
4.4776
  40
0.1201
  0
CIRCLE
  8
Drill_Top
  10
0.2
  20
3.9276
  40
0.1201
  0
CIRCLE
  8
Drill_Top
  10
0.2
  20
3.3776
  40
0.1201
  0
CIRCLE
  8
Drill_Top
  10
0.2
  20
2.8276
  40
0.1201
  0
CIRCLE
  8
Drill_Top
  10
0.2012
  20
0.1151
  40
0.065
  0
CIRCLE
  8
Drill_Top
  10
0.0988
  20
0.1151
  40
0.065
  0
SOLID
  8
Drill_Top
  10
0.0988
  20
0.0501
  11
0.2012
  21
0.0501
  12
0.0988
  22
0.18
  13
0.2012
  23
0.18
  0
CIRCLE
  8
Drill_Top
  10
0.2012
  20
4.9526
  40
0.065
  0
CIRCLE
  8
Drill_Top
  10
0.0988
  20
4.9526
  40
0.065
  0
SOLID
  8
Drill_Top
  10
0.0988
  20
4.8876
  11
0.2012
  21
4.8876
  12
0.0988
  22
5.0175
  13
0.2012
  23
5.0175
  0
POLYLINE
  8
Board_Outline
  6
CONTINUOUS
  66
1
  70
0
  40
0.01
  41
0.01
  0
VERTEX
  8
Board_Outline
  10
0.4
  20
5.0551
  42
0
  0
VERTEX
  8
Board_Outline
  10
0.0
  20
5.0551
  42
0
  0
VERTEX
  8
Board_Outline
  10
0.0
  20
0.0
  42
0
  0
VERTEX
  8
Board_Outline
  10
0.4
  20
0.0
  42
0
  0
VERTEX
  8
Board_Outline
  10
0.4
  20
5.0551
  42
0
  0
SEQEND
  0
ENDSEC
  0
EOF
