  0
SECTION
  2
HEADER
  9
$ACADVER
  1
AC1009
  9
$ANGDIR
  70
0
  9
$CECOLOR
  62
256
  9
$CELTYPE
  6
BYLAYER
  9
$EXTMIN
  10
0.0
  20
0.0
  9
$EXTMAX
  10
2.3811
  20
5.0551
  9
$FILLMODE
  70
1
  9
$MIRRTEXT
  70
0
  0
ENDSEC
  0
SECTION
  2
TABLES
  0
TABLE
  2
LAYER
  70
17
  0
LAYER
  2
Drill_Top
  70
64
  62
7
  6
CONTINUOUS
  0
LAYER
  2
Drill_Bottom
  70
64
  62
8
  6
CONTINUOUS
  0
LAYER
  2
Board_Outline
  70
64
  62
13
  6
CONTINUOUS
  0
ENDTAB
  0
ENDSEC
  0
SECTION
  2
ENTITIES
  0
CIRCLE
  8
Drill_Top
  10
0.6
  20
4.2677
  40
0.1378
  0
CIRCLE
  8
Drill_Top
  10
0.3047
  20
1.2598
  40
0.1201
  0
CIRCLE
  8
Drill_Top
  10
1.7811
  20
4.2677
  40
0.1378
  0
CIRCLE
  8
Drill_Top
  10
0.6
  20
3.5677
  40
0.1378
  0
CIRCLE
  8
Drill_Top
  10
1.7811
  20
3.5677
  40
0.1378
  0
CIRCLE
  8
Drill_Top
  10
0.6
  20
2.8677
  40
0.1378
  0
CIRCLE
  8
Drill_Top
  10
1.7811
  20
2.8677
  40
0.1378
  0
CIRCLE
  8
Drill_Top
  10
0.6
  20
2.1677
  40
0.1378
  0
CIRCLE
  8
Drill_Top
  10
1.7811
  20
2.1677
  40
0.1378
  0
CIRCLE
  8
Drill_Top
  10
0.8953
  20
1.2598
  40
0.1201
  0
CIRCLE
  8
Drill_Top
  10
1.4858
  20
1.2598
  40
0.1201
  0
CIRCLE
  8
Drill_Top
  10
2.0764
  20
1.2598
  40
0.1201
  0
CIRCLE
  8
Drill_Top
  10
0.3047
  20
0.6693
  40
0.1201
  0
CIRCLE
  8
Drill_Top
  10
0.8953
  20
0.6693
  40
0.1201
  0
CIRCLE
  8
Drill_Top
  10
1.4858
  20
0.6693
  40
0.1201
  0
CIRCLE
  8
Drill_Top
  10
2.0764
  20
0.6693
  40
0.1201
  0
CIRCLE
  8
Drill_Top
  10
0.335
  20
0.1181
  40
0.065
  0
CIRCLE
  8
Drill_Top
  10
0.2327
  20
0.1181
  40
0.065
  0
SOLID
  8
Drill_Top
  10
0.2327
  20
0.0531
  11
0.335
  21
0.0531
  12
0.2327
  22
0.1831
  13
0.335
  23
0.1831
  0
CIRCLE
  8
Drill_Top
  10
0.335
  20
4.937
  40
0.065
  0
CIRCLE
  8
Drill_Top
  10
0.2327
  20
4.937
  40
0.065
  0
SOLID
  8
Drill_Top
  10
0.2327
  20
4.872
  11
0.335
  21
4.872
  12
0.2327
  22
5.002
  13
0.335
  23
5.002
  0
CIRCLE
  8
Drill_Top
  10
2.1484
  20
0.1181
  40
0.065
  0
CIRCLE
  8
Drill_Top
  10
2.0461
  20
0.1181
  40
0.065
  0
SOLID
  8
Drill_Top
  10
2.0461
  20
0.0531
  11
2.1484
  21
0.0531
  12
2.0461
  22
0.1831
  13
2.1484
  23
0.1831
  0
CIRCLE
  8
Drill_Top
  10
2.1484
  20
4.937
  40
0.065
  0
CIRCLE
  8
Drill_Top
  10
2.0461
  20
4.937
  40
0.065
  0
SOLID
  8
Drill_Top
  10
2.0461
  20
4.872
  11
2.1484
  21
4.872
  12
2.0461
  22
5.002
  13
2.1484
  23
5.002
  0
CIRCLE
  8
Drill_Bottom
  10
0.6
  20
4.2677
  40
0.1378
  0
CIRCLE
  8
Drill_Bottom
  10
0.3047
  20
1.2598
  40
0.1201
  0
CIRCLE
  8
Drill_Bottom
  10
1.7811
  20
4.2677
  40
0.1378
  0
CIRCLE
  8
Drill_Bottom
  10
0.6
  20
3.5677
  40
0.1378
  0
CIRCLE
  8
Drill_Bottom
  10
1.7811
  20
3.5677
  40
0.1378
  0
CIRCLE
  8
Drill_Bottom
  10
0.6
  20
2.8677
  40
0.1378
  0
CIRCLE
  8
Drill_Bottom
  10
1.7811
  20
2.8677
  40
0.1378
  0
CIRCLE
  8
Drill_Bottom
  10
0.6
  20
2.1677
  40
0.1378
  0
CIRCLE
  8
Drill_Bottom
  10
1.7811
  20
2.1677
  40
0.1378
  0
CIRCLE
  8
Drill_Bottom
  10
0.8953
  20
1.2598
  40
0.1201
  0
CIRCLE
  8
Drill_Bottom
  10
1.4858
  20
1.2598
  40
0.1201
  0
CIRCLE
  8
Drill_Bottom
  10
2.0764
  20
1.2598
  40
0.1201
  0
CIRCLE
  8
Drill_Bottom
  10
0.3047
  20
0.6693
  40
0.1201
  0
CIRCLE
  8
Drill_Bottom
  10
0.8953
  20
0.6693
  40
0.1201
  0
CIRCLE
  8
Drill_Bottom
  10
1.4858
  20
0.6693
  40
0.1201
  0
CIRCLE
  8
Drill_Bottom
  10
2.0764
  20
0.6693
  40
0.1201
  0
CIRCLE
  8
Drill_Bottom
  10
0.335
  20
0.1181
  40
0.065
  0
CIRCLE
  8
Drill_Bottom
  10
0.2327
  20
0.1181
  40
0.065
  0
SOLID
  8
Drill_Bottom
  10
0.2327
  20
0.0531
  11
0.335
  21
0.0531
  12
0.2327
  22
0.1831
  13
0.335
  23
0.1831
  0
CIRCLE
  8
Drill_Bottom
  10
0.335
  20
4.937
  40
0.065
  0
CIRCLE
  8
Drill_Bottom
  10
0.2327
  20
4.937
  40
0.065
  0
SOLID
  8
Drill_Bottom
  10
0.2327
  20
4.872
  11
0.335
  21
4.872
  12
0.2327
  22
5.002
  13
0.335
  23
5.002
  0
CIRCLE
  8
Drill_Bottom
  10
2.1484
  20
0.1181
  40
0.065
  0
CIRCLE
  8
Drill_Bottom
  10
2.0461
  20
0.1181
  40
0.065
  0
SOLID
  8
Drill_Bottom
  10
2.0461
  20
0.0531
  11
2.1484
  21
0.0531
  12
2.0461
  22
0.1831
  13
2.1484
  23
0.1831
  0
CIRCLE
  8
Drill_Bottom
  10
2.1484
  20
4.937
  40
0.065
  0
CIRCLE
  8
Drill_Bottom
  10
2.0461
  20
4.937
  40
0.065
  0
SOLID
  8
Drill_Bottom
  10
2.0461
  20
4.872
  11
2.1484
  21
4.872
  12
2.0461
  22
5.002
  13
2.1484
  23
5.002
  0
POLYLINE
  8
Board_Outline
  6
CONTINUOUS
  66
1
  70
0
  40
0.01
  41
0.01
  0
VERTEX
  8
Board_Outline
  10
2.3811
  20
5.0551
  42
0
  0
VERTEX
  8
Board_Outline
  10
2.3811
  20
0.0
  42
0
  0
VERTEX
  8
Board_Outline
  10
0.0
  20
0.0
  42
0
  0
VERTEX
  8
Board_Outline
  10
0.0
  20
5.0551
  42
0
  0
VERTEX
  8
Board_Outline
  10
2.3811
  20
5.0551
  42
0
  0
SEQEND
  0
ENDSEC
  0
EOF
