  0
SECTION
  2
HEADER
  9
$ACADVER
  1
AC1009
  9
$ANGDIR
  70
0
  9
$CECOLOR
  62
256
  9
$CELTYPE
  6
BYLAYER
  9
$EXTMIN
  10
0.0
  20
0.0
  9
$EXTMAX
  10
1.9843
  20
5.0551
  9
$FILLMODE
  70
1
  9
$MIRRTEXT
  70
0
  0
ENDSEC
  0
SECTION
  2
TABLES
  0
TABLE
  2
LAYER
  70
17
  0
LAYER
  2
Top
  70
64
  62
5
  6
CONTINUOUS
  0
LAYER
  2
Bottom
  70
64
  62
6
  6
CONTINUOUS
  0
LAYER
  2
Drill_Top
  70
64
  62
7
  6
CONTINUOUS
  0
LAYER
  2
Drill_Bottom
  70
64
  62
8
  6
CONTINUOUS
  0
LAYER
  2
Board_Outline
  70
64
  62
13
  6
CONTINUOUS
  0
LAYER
  2
Top_Dimension
  70
64
  62
14
  6
CONTINUOUS
  0
LAYER
  2
Bottom_Dimension
  70
64
  62
15
  6
CONTINUOUS
  0
ENDTAB
  0
ENDSEC
  0
SECTION
  2
ENTITIES
  0
POLYLINE
  8
Top
  6
CONTINUOUS
  66
1
  70
0
  40
0.065
  41
0.065
  0
VERTEX
  8
Top
  10
0.2667
  20
0.1181
  42
1
  0
VERTEX
  8
Top
  10
0.2018
  20
0.1181
  42
1
  0
VERTEX
  8
Top
  10
0.2667
  20
0.1181
  42
1
  0
SEQEND
  0
POLYLINE
  8
Top
  6
CONTINUOUS
  66
1
  70
0
  40
0.065
  41
0.065
  0
VERTEX
  8
Top
  10
0.3691
  20
0.1181
  42
1
  0
VERTEX
  8
Top
  10
0.3041
  20
0.1181
  42
1
  0
VERTEX
  8
Top
  10
0.3691
  20
0.1181
  42
1
  0
SEQEND
  0
SOLID
  8
Top
  10
0.2343
  20
0.1831
  11
0.3366
  21
0.1831
  12
0.2343
  22
0.0531
  13
0.3366
  23
0.0531
  0
POLYLINE
  8
Top
  6
CONTINUOUS
  66
1
  70
0
  40
0.065
  41
0.065
  0
VERTEX
  8
Top
  10
0.2667
  20
4.937
  42
1
  0
VERTEX
  8
Top
  10
0.2018
  20
4.937
  42
1
  0
VERTEX
  8
Top
  10
0.2667
  20
4.937
  42
1
  0
SEQEND
  0
POLYLINE
  8
Top
  6
CONTINUOUS
  66
1
  70
0
  40
0.065
  41
0.065
  0
VERTEX
  8
Top
  10
0.3691
  20
4.937
  42
1
  0
VERTEX
  8
Top
  10
0.3041
  20
4.937
  42
1
  0
VERTEX
  8
Top
  10
0.3691
  20
4.937
  42
1
  0
SEQEND
  0
SOLID
  8
Top
  10
0.2343
  20
5.002
  11
0.3366
  21
5.002
  12
0.2343
  22
4.872
  13
0.3366
  23
4.872
  0
POLYLINE
  8
Top
  6
CONTINUOUS
  66
1
  70
0
  40
0.065
  41
0.065
  0
VERTEX
  8
Top
  10
1.6801
  20
0.1181
  42
1
  0
VERTEX
  8
Top
  10
1.6152
  20
0.1181
  42
1
  0
VERTEX
  8
Top
  10
1.6801
  20
0.1181
  42
1
  0
SEQEND
  0
POLYLINE
  8
Top
  6
CONTINUOUS
  66
1
  70
0
  40
0.065
  41
0.065
  0
VERTEX
  8
Top
  10
1.7825
  20
0.1181
  42
1
  0
VERTEX
  8
Top
  10
1.7175
  20
0.1181
  42
1
  0
VERTEX
  8
Top
  10
1.7825
  20
0.1181
  42
1
  0
SEQEND
  0
SOLID
  8
Top
  10
1.6476
  20
0.1831
  11
1.75
  21
0.1831
  12
1.6476
  22
0.0531
  13
1.75
  23
0.0531
  0
POLYLINE
  8
Top
  6
CONTINUOUS
  66
1
  70
0
  40
0.065
  41
0.065
  0
VERTEX
  8
Top
  10
1.6801
  20
4.937
  42
1
  0
VERTEX
  8
Top
  10
1.6152
  20
4.937
  42
1
  0
VERTEX
  8
Top
  10
1.6801
  20
4.937
  42
1
  0
SEQEND
  0
POLYLINE
  8
Top
  6
CONTINUOUS
  66
1
  70
0
  40
0.065
  41
0.065
  0
VERTEX
  8
Top
  10
1.7825
  20
4.937
  42
1
  0
VERTEX
  8
Top
  10
1.7175
  20
4.937
  42
1
  0
VERTEX
  8
Top
  10
1.7825
  20
4.937
  42
1
  0
SEQEND
  0
SOLID
  8
Top
  10
1.6476
  20
5.002
  11
1.75
  21
5.002
  12
1.6476
  22
4.872
  13
1.75
  23
4.872
  0
POLYLINE
  8
Bottom
  6
CONTINUOUS
  66
1
  70
0
  40
0.065
  41
0.065
  0
VERTEX
  8
Bottom
  10
0.2667
  20
0.1181
  42
1
  0
VERTEX
  8
Bottom
  10
0.2018
  20
0.1181
  42
1
  0
VERTEX
  8
Bottom
  10
0.2667
  20
0.1181
  42
1
  0
SEQEND
  0
POLYLINE
  8
Bottom
  6
CONTINUOUS
  66
1
  70
0
  40
0.065
  41
0.065
  0
VERTEX
  8
Bottom
  10
0.3691
  20
0.1181
  42
1
  0
VERTEX
  8
Bottom
  10
0.3041
  20
0.1181
  42
1
  0
VERTEX
  8
Bottom
  10
0.3691
  20
0.1181
  42
1
  0
SEQEND
  0
SOLID
  8
Bottom
  10
0.2343
  20
0.1831
  11
0.3366
  21
0.1831
  12
0.2343
  22
0.0531
  13
0.3366
  23
0.0531
  0
POLYLINE
  8
Bottom
  6
CONTINUOUS
  66
1
  70
0
  40
0.065
  41
0.065
  0
VERTEX
  8
Bottom
  10
0.2667
  20
4.937
  42
1
  0
VERTEX
  8
Bottom
  10
0.2018
  20
4.937
  42
1
  0
VERTEX
  8
Bottom
  10
0.2667
  20
4.937
  42
1
  0
SEQEND
  0
POLYLINE
  8
Bottom
  6
CONTINUOUS
  66
1
  70
0
  40
0.065
  41
0.065
  0
VERTEX
  8
Bottom
  10
0.3691
  20
4.937
  42
1
  0
VERTEX
  8
Bottom
  10
0.3041
  20
4.937
  42
1
  0
VERTEX
  8
Bottom
  10
0.3691
  20
4.937
  42
1
  0
SEQEND
  0
SOLID
  8
Bottom
  10
0.2343
  20
5.002
  11
0.3366
  21
5.002
  12
0.2343
  22
4.872
  13
0.3366
  23
4.872
  0
POLYLINE
  8
Bottom
  6
CONTINUOUS
  66
1
  70
0
  40
0.065
  41
0.065
  0
VERTEX
  8
Bottom
  10
1.6801
  20
0.1181
  42
1
  0
VERTEX
  8
Bottom
  10
1.6152
  20
0.1181
  42
1
  0
VERTEX
  8
Bottom
  10
1.6801
  20
0.1181
  42
1
  0
SEQEND
  0
POLYLINE
  8
Bottom
  6
CONTINUOUS
  66
1
  70
0
  40
0.065
  41
0.065
  0
VERTEX
  8
Bottom
  10
1.7825
  20
0.1181
  42
1
  0
VERTEX
  8
Bottom
  10
1.7175
  20
0.1181
  42
1
  0
VERTEX
  8
Bottom
  10
1.7825
  20
0.1181
  42
1
  0
SEQEND
  0
SOLID
  8
Bottom
  10
1.6476
  20
0.1831
  11
1.75
  21
0.1831
  12
1.6476
  22
0.0531
  13
1.75
  23
0.0531
  0
POLYLINE
  8
Bottom
  6
CONTINUOUS
  66
1
  70
0
  40
0.065
  41
0.065
  0
VERTEX
  8
Bottom
  10
1.6801
  20
4.937
  42
1
  0
VERTEX
  8
Bottom
  10
1.6152
  20
4.937
  42
1
  0
VERTEX
  8
Bottom
  10
1.6801
  20
4.937
  42
1
  0
SEQEND
  0
POLYLINE
  8
Bottom
  6
CONTINUOUS
  66
1
  70
0
  40
0.065
  41
0.065
  0
VERTEX
  8
Bottom
  10
1.7825
  20
4.937
  42
1
  0
VERTEX
  8
Bottom
  10
1.7175
  20
4.937
  42
1
  0
VERTEX
  8
Bottom
  10
1.7825
  20
4.937
  42
1
  0
SEQEND
  0
SOLID
  8
Bottom
  10
1.6476
  20
5.002
  11
1.75
  21
5.002
  12
1.6476
  22
4.872
  13
1.75
  23
4.872
  0
CIRCLE
  8
Drill_Top
  10
1.6921
  20
3.6276
  40
0.1398
  0
CIRCLE
  8
Drill_Top
  10
0.2921
  20
3.6276
  40
0.1398
  0
CIRCLE
  8
Drill_Top
  10
0.9921
  20
3.6276
  40
0.1398
  0
CIRCLE
  8
Drill_Top
  10
0.9921
  20
1.4276
  40
0.1201
  0
CIRCLE
  8
Drill_Top
  10
1.4594
  20
2.5276
  40
0.1398
  0
CIRCLE
  8
Drill_Top
  10
0.5248
  20
2.5276
  40
0.1398
  0
CIRCLE
  8
Drill_Top
  10
0.2921
  20
1.4276
  40
0.1201
  0
CIRCLE
  8
Drill_Top
  10
1.6921
  20
3.1776
  40
0.061
  0
CIRCLE
  8
Drill_Top
  10
1.6921
  20
1.4276
  40
0.1201
  0
CIRCLE
  8
Drill_Top
  10
0.2921
  20
4.2776
  40
0.1201
  0
CIRCLE
  8
Drill_Top
  10
0.9921
  20
1.8276
  40
0.061
  0
CIRCLE
  8
Drill_Top
  10
0.9921
  20
4.2776
  40
0.1201
  0
CIRCLE
  8
Drill_Top
  10
1.6921
  20
4.2776
  40
0.1201
  0
CIRCLE
  8
Drill_Top
  10
1.6921
  20
1.8276
  40
0.061
  0
CIRCLE
  8
Drill_Top
  10
0.2921
  20
0.7776
  40
0.1201
  0
CIRCLE
  8
Drill_Top
  10
0.9921
  20
0.7776
  40
0.1201
  0
CIRCLE
  8
Drill_Top
  10
1.6921
  20
0.7776
  40
0.1201
  0
CIRCLE
  8
Drill_Top
  10
0.3366
  20
0.1181
  40
0.065
  0
CIRCLE
  8
Drill_Top
  10
0.2343
  20
0.1181
  40
0.065
  0
SOLID
  8
Drill_Top
  10
0.2343
  20
0.0531
  11
0.3366
  21
0.0531
  12
0.2343
  22
0.1831
  13
0.3366
  23
0.1831
  0
CIRCLE
  8
Drill_Top
  10
0.3366
  20
4.937
  40
0.065
  0
CIRCLE
  8
Drill_Top
  10
0.2343
  20
4.937
  40
0.065
  0
SOLID
  8
Drill_Top
  10
0.2343
  20
4.872
  11
0.3366
  21
4.872
  12
0.2343
  22
5.002
  13
0.3366
  23
5.002
  0
CIRCLE
  8
Drill_Top
  10
1.75
  20
0.1181
  40
0.065
  0
CIRCLE
  8
Drill_Top
  10
1.6476
  20
0.1181
  40
0.065
  0
SOLID
  8
Drill_Top
  10
1.6476
  20
0.0531
  11
1.75
  21
0.0531
  12
1.6476
  22
0.1831
  13
1.75
  23
0.1831
  0
CIRCLE
  8
Drill_Top
  10
1.75
  20
4.937
  40
0.065
  0
CIRCLE
  8
Drill_Top
  10
1.6476
  20
4.937
  40
0.065
  0
SOLID
  8
Drill_Top
  10
1.6476
  20
4.872
  11
1.75
  21
4.872
  12
1.6476
  22
5.002
  13
1.75
  23
5.002
  0
CIRCLE
  8
Drill_Bottom
  10
1.6921
  20
3.6276
  40
0.1398
  0
CIRCLE
  8
Drill_Bottom
  10
0.2921
  20
3.6276
  40
0.1398
  0
CIRCLE
  8
Drill_Bottom
  10
0.9921
  20
3.6276
  40
0.1398
  0
CIRCLE
  8
Drill_Bottom
  10
0.9921
  20
1.4276
  40
0.1201
  0
CIRCLE
  8
Drill_Bottom
  10
1.4594
  20
2.5276
  40
0.1398
  0
CIRCLE
  8
Drill_Bottom
  10
0.5248
  20
2.5276
  40
0.1398
  0
CIRCLE
  8
Drill_Bottom
  10
0.2921
  20
1.4276
  40
0.1201
  0
CIRCLE
  8
Drill_Bottom
  10
1.6921
  20
3.1776
  40
0.061
  0
CIRCLE
  8
Drill_Bottom
  10
1.6921
  20
1.4276
  40
0.1201
  0
CIRCLE
  8
Drill_Bottom
  10
0.2921
  20
4.2776
  40
0.1201
  0
CIRCLE
  8
Drill_Bottom
  10
0.9921
  20
1.8276
  40
0.061
  0
CIRCLE
  8
Drill_Bottom
  10
0.9921
  20
4.2776
  40
0.1201
  0
CIRCLE
  8
Drill_Bottom
  10
1.6921
  20
4.2776
  40
0.1201
  0
CIRCLE
  8
Drill_Bottom
  10
1.6921
  20
1.8276
  40
0.061
  0
CIRCLE
  8
Drill_Bottom
  10
0.2921
  20
0.7776
  40
0.1201
  0
CIRCLE
  8
Drill_Bottom
  10
0.9921
  20
0.7776
  40
0.1201
  0
CIRCLE
  8
Drill_Bottom
  10
1.6921
  20
0.7776
  40
0.1201
  0
CIRCLE
  8
Drill_Bottom
  10
0.3366
  20
0.1181
  40
0.065
  0
CIRCLE
  8
Drill_Bottom
  10
0.2343
  20
0.1181
  40
0.065
  0
SOLID
  8
Drill_Bottom
  10
0.2343
  20
0.0531
  11
0.3366
  21
0.0531
  12
0.2343
  22
0.1831
  13
0.3366
  23
0.1831
  0
CIRCLE
  8
Drill_Bottom
  10
0.3366
  20
4.937
  40
0.065
  0
CIRCLE
  8
Drill_Bottom
  10
0.2343
  20
4.937
  40
0.065
  0
SOLID
  8
Drill_Bottom
  10
0.2343
  20
4.872
  11
0.3366
  21
4.872
  12
0.2343
  22
5.002
  13
0.3366
  23
5.002
  0
CIRCLE
  8
Drill_Bottom
  10
1.75
  20
0.1181
  40
0.065
  0
CIRCLE
  8
Drill_Bottom
  10
1.6476
  20
0.1181
  40
0.065
  0
SOLID
  8
Drill_Bottom
  10
1.6476
  20
0.0531
  11
1.75
  21
0.0531
  12
1.6476
  22
0.1831
  13
1.75
  23
0.1831
  0
CIRCLE
  8
Drill_Bottom
  10
1.75
  20
4.937
  40
0.065
  0
CIRCLE
  8
Drill_Bottom
  10
1.6476
  20
4.937
  40
0.065
  0
SOLID
  8
Drill_Bottom
  10
1.6476
  20
4.872
  11
1.75
  21
4.872
  12
1.6476
  22
5.002
  13
1.75
  23
5.002
  0
POLYLINE
  8
Board_Outline
  6
CONTINUOUS
  66
1
  70
0
  40
0.01
  41
0.01
  0
VERTEX
  8
Board_Outline
  10
1.9843
  20
5.0551
  42
0
  0
VERTEX
  8
Board_Outline
  10
1.9843
  20
0.0
  42
0
  0
VERTEX
  8
Board_Outline
  10
0.0
  20
0.0
  42
0
  0
VERTEX
  8
Board_Outline
  10
0.0
  20
5.0551
  42
0
  0
VERTEX
  8
Board_Outline
  10
1.9843
  20
5.0551
  42
0
  0
SEQEND
  0
ENDSEC
  0
EOF
