  0
SECTION
  2
HEADER
  9
$ACADVER
  1
AC1009
  9
$ANGDIR
  70
0
  9
$CECOLOR
  62
256
  9
$CELTYPE
  6
BYLAYER
  9
$EXTMIN
  10
0.0
  20
0.0
  9
$EXTMAX
  10
0.8
  20
5.0551
  9
$FILLMODE
  70
1
  9
$MIRRTEXT
  70
0
  0
ENDSEC
  0
SECTION
  2
TABLES
  0
TABLE
  2
LAYER
  70
17
  0
LAYER
  2
Drill_Top
  70
64
  62
7
  6
CONTINUOUS
  0
LAYER
  2
Drill_Bottom
  70
64
  62
8
  6
CONTINUOUS
  0
LAYER
  2
Board_Outline
  70
64
  62
13
  6
CONTINUOUS
  0
ENDTAB
  0
ENDSEC
  0
SECTION
  2
ENTITIES
  0
CIRCLE
  8
Drill_Top
  10
0.4
  20
2.8588
  40
0.1398
  0
CIRCLE
  8
Drill_Top
  10
0.4
  20
1.6776
  40
0.0591
  0
CIRCLE
  8
Drill_Top
  10
0.2
  20
1.3276
  40
0.1201
  0
CIRCLE
  8
Drill_Top
  10
0.4
  20
3.5588
  40
0.1398
  0
CIRCLE
  8
Drill_Top
  10
0.4
  20
4.2588
  40
0.1398
  0
CIRCLE
  8
Drill_Top
  10
0.4
  20
2.1588
  40
0.1398
  0
CIRCLE
  8
Drill_Top
  10
0.6
  20
1.3276
  40
0.1201
  0
CIRCLE
  8
Drill_Top
  10
0.2
  20
0.7776
  40
0.1201
  0
CIRCLE
  8
Drill_Top
  10
0.6
  20
0.7776
  40
0.1201
  0
CIRCLE
  8
Drill_Top
  10
0.3449
  20
0.1213
  40
0.065
  0
CIRCLE
  8
Drill_Top
  10
0.2426
  20
0.1213
  40
0.065
  0
SOLID
  8
Drill_Top
  10
0.2426
  20
0.0563
  11
0.3449
  21
0.0563
  12
0.2426
  22
0.1863
  13
0.3449
  23
0.1863
  0
CIRCLE
  8
Drill_Top
  10
0.3449
  20
4.9402
  40
0.065
  0
CIRCLE
  8
Drill_Top
  10
0.2426
  20
4.9402
  40
0.065
  0
SOLID
  8
Drill_Top
  10
0.2426
  20
4.8752
  11
0.3449
  21
4.8752
  12
0.2426
  22
5.0052
  13
0.3449
  23
5.0052
  0
CIRCLE
  8
Drill_Bottom
  10
0.4
  20
2.8588
  40
0.1398
  0
CIRCLE
  8
Drill_Bottom
  10
0.4
  20
1.6776
  40
0.0591
  0
CIRCLE
  8
Drill_Bottom
  10
0.2
  20
1.3276
  40
0.1201
  0
CIRCLE
  8
Drill_Bottom
  10
0.4
  20
3.5588
  40
0.1398
  0
CIRCLE
  8
Drill_Bottom
  10
0.4
  20
4.2588
  40
0.1398
  0
CIRCLE
  8
Drill_Bottom
  10
0.4
  20
2.1588
  40
0.1398
  0
CIRCLE
  8
Drill_Bottom
  10
0.6
  20
1.3276
  40
0.1201
  0
CIRCLE
  8
Drill_Bottom
  10
0.2
  20
0.7776
  40
0.1201
  0
CIRCLE
  8
Drill_Bottom
  10
0.6
  20
0.7776
  40
0.1201
  0
CIRCLE
  8
Drill_Bottom
  10
0.3449
  20
0.1213
  40
0.065
  0
CIRCLE
  8
Drill_Bottom
  10
0.2426
  20
0.1213
  40
0.065
  0
SOLID
  8
Drill_Bottom
  10
0.2426
  20
0.0563
  11
0.3449
  21
0.0563
  12
0.2426
  22
0.1863
  13
0.3449
  23
0.1863
  0
CIRCLE
  8
Drill_Bottom
  10
0.3449
  20
4.9402
  40
0.065
  0
CIRCLE
  8
Drill_Bottom
  10
0.2426
  20
4.9402
  40
0.065
  0
SOLID
  8
Drill_Bottom
  10
0.2426
  20
4.8752
  11
0.3449
  21
4.8752
  12
0.2426
  22
5.0052
  13
0.3449
  23
5.0052
  0
POLYLINE
  8
Board_Outline
  6
CONTINUOUS
  66
1
  70
0
  40
0.01
  41
0.01
  0
VERTEX
  8
Board_Outline
  10
0.8
  20
5.0551
  42
0
  0
VERTEX
  8
Board_Outline
  10
0.0
  20
5.0551
  42
0
  0
VERTEX
  8
Board_Outline
  10
0.0
  20
0.0
  42
0
  0
VERTEX
  8
Board_Outline
  10
0.8
  20
0.0
  42
0
  0
VERTEX
  8
Board_Outline
  10
0.8
  20
5.0551
  42
0
  0
SEQEND
  0
ENDSEC
  0
EOF
